  0
SECTION
  2
HEADER
  9
$ACADVER
  1
AC2.10
  0
ENDSEC
  0
SECTION
  2
TABLES
  0
TABLE
  2
LAYER
 70
     8
  0
LAYER
  2
0
 62
     7
 70
0
  6
CONTINUOUS
  0
LAYER
  2
1
 62
     1
 70
0
  6
CONTINUOUS
  0
LAYER
  2
2
 62
     2
 70
0
  6
CONTINUOUS
  0
LAYER
  2
3
 62
     3
 70
0
  6
CONTINUOUS
  0
LAYER
  2
4
 62
     4
 70
0
  6
CONTINUOUS
  0
LAYER
  2
5
 62
     5
 70
0
  6
CONTINUOUS
  0
LAYER
  2
6
 62
     6
 70
0
  6
CONTINUOUS
  0
LAYER
  2
7
 62
     7
 70
0
  6
CONTINUOUS
  0
ENDTAB
  0
TABLE
  2
STYLE
 70
     1
  0
STYLE
 70
     0
  2
STANDARD
  3
TXT
 40
0.00
 41
1.00
 42
1.00
 50
0.00
 71
     0
  0
ENDTAB
  0
ENDSEC
  0
SECTION
  2
BLOCKS
  0
BLOCK
  8
0
  2
EPAD
 70
0
 10
0.0
 20
0.0
  0
POLYLINE
  8
0
 66
1
 70
1
 40
0.5
 41
0.5
  0
VERTEX
  8
0
 10
-0.25
 20
0.0
 42
1.0
  0
VERTEX
  8
0
 10
0.25
 20
0.0
 42
1.0
  0
SEQEND
  8
0
  0
ENDBLK
  8
0
  0
BLOCK
  8
0
  2
RPAD
 70
0
 10
0.0
 20
0.0
  0
TRACE
  8
0
 10
-0.5
 20
-0.5
 11
-0.5
 21
0.5
 12
0.5
 22
-0.5
 13
0.5
 23
0.5
  0
ENDBLK
  8
0
  0
ENDSEC
0
SECTION
2
ENTITIES
0
POLYLINE
8
0
66
1
40
0.008000
41
0.008000
0
VERTEX
8
0
10
-0.057000
20
0.777000
0
VERTEX
8
0
10
-0.057000
20
0.727000
0
SEQEND
8
0
0
POLYLINE
8
0
66
1
40
0.008000
41
0.008000
0
VERTEX
8
0
10
-0.082000
20
0.752000
0
VERTEX
8
0
10
-0.032000
20
0.752000
0
SEQEND
8
0
0
POLYLINE
8
0
66
1
40
0.008000
41
0.008000
0
VERTEX
8
0
10
-0.057000
20
-0.722000
0
VERTEX
8
0
10
-0.057000
20
-0.772000
0
SEQEND
8
0
0
POLYLINE
8
0
66
1
40
0.008000
41
0.008000
0
VERTEX
8
0
10
-0.082000
20
-0.747000
0
VERTEX
8
0
10
-0.032000
20
-0.747000
0
SEQEND
8
0
0
POLYLINE
8
0
66
1
40
0.008000
41
0.008000
0
VERTEX
8
0
10
-0.054000
20
-0.206000
0
VERTEX
8
0
10
-0.054000
20
-0.256000
0
SEQEND
8
0
0
POLYLINE
8
0
66
1
40
0.008000
41
0.008000
0
VERTEX
8
0
10
-0.079000
20
-0.231000
0
VERTEX
8
0
10
-0.029000
20
-0.231000
0
SEQEND
8
0
0
POLYLINE
8
0
66
1
40
0.008000
41
0.008000
0
VERTEX
8
0
10
-0.072000
20
-0.214000
0
VERTEX
8
0
10
-0.037000
20
-0.249000
0
SEQEND
8
0
0
POLYLINE
8
0
66
1
40
0.008000
41
0.008000
0
VERTEX
8
0
10
-0.072000
20
-0.249000
0
VERTEX
8
0
10
-0.037000
20
-0.214000
0
SEQEND
8
0
0
POLYLINE
8
0
66
1
40
0.008000
41
0.008000
0
VERTEX
8
0
10
-0.122000
20
0.252000
0
VERTEX
8
0
10
-0.122000
20
0.202000
0
SEQEND
8
0
0
POLYLINE
8
0
66
1
40
0.008000
41
0.008000
0
VERTEX
8
0
10
-0.147000
20
0.227000
0
VERTEX
8
0
10
-0.097000
20
0.227000
0
SEQEND
8
0
0
POLYLINE
8
0
66
1
40
0.008000
41
0.008000
0
VERTEX
8
0
10
-0.140000
20
0.244000
0
VERTEX
8
0
10
-0.105000
20
0.209000
0
SEQEND
8
0
0
POLYLINE
8
0
66
1
40
0.008000
41
0.008000
0
VERTEX
8
0
10
-0.140000
20
0.209000
0
VERTEX
8
0
10
-0.105000
20
0.244000
0
SEQEND
8
0
0
POLYLINE
8
0
66
1
40
0.008000
41
0.008000
0
VERTEX
8
0
10
0.169000
20
-0.035000
0
VERTEX
8
0
10
0.169000
20
-0.085000
0
SEQEND
8
0
0
POLYLINE
8
0
66
1
40
0.008000
41
0.008000
0
VERTEX
8
0
10
0.144000
20
-0.060000
0
VERTEX
8
0
10
0.194000
20
-0.060000
0
SEQEND
8
0
0
POLYLINE
8
0
66
1
40
0.008000
41
0.008000
0
VERTEX
8
0
10
0.151000
20
-0.043000
0
VERTEX
8
0
10
0.186000
20
-0.078000
0
SEQEND
8
0
0
POLYLINE
8
0
66
1
40
0.008000
41
0.008000
0
VERTEX
8
0
10
0.151000
20
-0.078000
0
VERTEX
8
0
10
0.186000
20
-0.043000
0
SEQEND
8
0
0
POLYLINE
8
0
66
1
40
0.008000
41
0.008000
0
VERTEX
8
0
10
0.067000
20
0.226000
0
VERTEX
8
0
10
0.067000
20
0.176000
0
SEQEND
8
0
0
POLYLINE
8
0
66
1
40
0.008000
41
0.008000
0
VERTEX
8
0
10
0.042000
20
0.201000
0
VERTEX
8
0
10
0.092000
20
0.201000
0
SEQEND
8
0
0
POLYLINE
8
0
66
1
40
0.008000
41
0.008000
0
VERTEX
8
0
10
0.049000
20
0.218000
0
VERTEX
8
0
10
0.084000
20
0.183000
0
SEQEND
8
0
0
POLYLINE
8
0
66
1
40
0.008000
41
0.008000
0
VERTEX
8
0
10
0.049000
20
0.183000
0
VERTEX
8
0
10
0.084000
20
0.218000
0
SEQEND
8
0
0
POLYLINE
8
0
66
1
40
0.008000
41
0.008000
0
VERTEX
8
0
10
-0.211000
20
0.205000
0
VERTEX
8
0
10
-0.211000
20
0.155000
0
SEQEND
8
0
0
POLYLINE
8
0
66
1
40
0.008000
41
0.008000
0
VERTEX
8
0
10
-0.236000
20
0.180000
0
VERTEX
8
0
10
-0.186000
20
0.180000
0
SEQEND
8
0
0
POLYLINE
8
0
66
1
40
0.008000
41
0.008000
0
VERTEX
8
0
10
-0.229000
20
0.197000
0
VERTEX
8
0
10
-0.194000
20
0.162000
0
SEQEND
8
0
0
POLYLINE
8
0
66
1
40
0.008000
41
0.008000
0
VERTEX
8
0
10
-0.229000
20
0.162000
0
VERTEX
8
0
10
-0.194000
20
0.197000
0
SEQEND
8
0
0
POLYLINE
8
0
66
1
40
0.008000
41
0.008000
0
VERTEX
8
0
10
-0.291000
20
0.029000
0
VERTEX
8
0
10
-0.291000
20
-0.020000
0
SEQEND
8
0
0
POLYLINE
8
0
66
1
40
0.008000
41
0.008000
0
VERTEX
8
0
10
-0.316000
20
0.004000
0
VERTEX
8
0
10
-0.266000
20
0.004000
0
SEQEND
8
0
0
POLYLINE
8
0
66
1
40
0.008000
41
0.008000
0
VERTEX
8
0
10
-0.309000
20
0.021000
0
VERTEX
8
0
10
-0.274000
20
-0.013000
0
SEQEND
8
0
0
POLYLINE
8
0
66
1
40
0.008000
41
0.008000
0
VERTEX
8
0
10
-0.309000
20
-0.013000
0
VERTEX
8
0
10
-0.274000
20
0.021000
0
SEQEND
8
0
0
POLYLINE
8
0
66
1
40
0.008000
41
0.008000
0
VERTEX
8
0
10
0.139000
20
0.158000
0
VERTEX
8
0
10
0.139000
20
0.108000
0
SEQEND
8
0
0
POLYLINE
8
0
66
1
40
0.008000
41
0.008000
0
VERTEX
8
0
10
0.114000
20
0.133000
0
VERTEX
8
0
10
0.164000
20
0.133000
0
SEQEND
8
0
0
POLYLINE
8
0
66
1
40
0.008000
41
0.008000
0
VERTEX
8
0
10
0.121000
20
0.150000
0
VERTEX
8
0
10
0.156000
20
0.115000
0
SEQEND
8
0
0
POLYLINE
8
0
66
1
40
0.008000
41
0.008000
0
VERTEX
8
0
10
0.121000
20
0.115000
0
VERTEX
8
0
10
0.156000
20
0.150000
0
SEQEND
8
0
0
POLYLINE
8
0
66
1
40
0.008000
41
0.008000
0
VERTEX
8
0
10
0.123000
20
-0.121000
0
VERTEX
8
0
10
0.123000
20
-0.171000
0
SEQEND
8
0
0
POLYLINE
8
0
66
1
40
0.008000
41
0.008000
0
VERTEX
8
0
10
0.098000
20
-0.146000
0
VERTEX
8
0
10
0.148000
20
-0.146000
0
SEQEND
8
0
0
POLYLINE
8
0
66
1
40
0.008000
41
0.008000
0
VERTEX
8
0
10
0.105000
20
-0.129000
0
VERTEX
8
0
10
0.140000
20
-0.164000
0
SEQEND
8
0
0
POLYLINE
8
0
66
1
40
0.008000
41
0.008000
0
VERTEX
8
0
10
0.105000
20
-0.164000
0
VERTEX
8
0
10
0.140000
20
-0.129000
0
SEQEND
8
0
0
POLYLINE
8
0
66
1
40
0.008000
41
0.008000
0
VERTEX
8
0
10
-0.270000
20
-0.069000
0
VERTEX
8
0
10
-0.270000
20
-0.119000
0
SEQEND
8
0
0
POLYLINE
8
0
66
1
40
0.008000
41
0.008000
0
VERTEX
8
0
10
-0.295000
20
-0.094000
0
VERTEX
8
0
10
-0.245000
20
-0.094000
0
SEQEND
8
0
0
POLYLINE
8
0
66
1
40
0.008000
41
0.008000
0
VERTEX
8
0
10
-0.288000
20
-0.077000
0
VERTEX
8
0
10
-0.253000
20
-0.112000
0
SEQEND
8
0
0
POLYLINE
8
0
66
1
40
0.008000
41
0.008000
0
VERTEX
8
0
10
-0.288000
20
-0.112000
0
VERTEX
8
0
10
-0.253000
20
-0.077000
0
SEQEND
8
0
0
POLYLINE
8
0
66
1
40
0.008000
41
0.008000
0
VERTEX
8
0
10
-0.272000
20
0.126000
0
VERTEX
8
0
10
-0.272000
20
0.076000
0
SEQEND
8
0
0
POLYLINE
8
0
66
1
40
0.008000
41
0.008000
0
VERTEX
8
0
10
-0.297000
20
0.101000
0
VERTEX
8
0
10
-0.247000
20
0.101000
0
SEQEND
8
0
0
POLYLINE
8
0
66
1
40
0.008000
41
0.008000
0
VERTEX
8
0
10
-0.290000
20
0.118000
0
VERTEX
8
0
10
-0.255000
20
0.083000
0
SEQEND
8
0
0
POLYLINE
8
0
66
1
40
0.008000
41
0.008000
0
VERTEX
8
0
10
-0.290000
20
0.083000
0
VERTEX
8
0
10
-0.255000
20
0.118000
0
SEQEND
8
0
0
POLYLINE
8
0
66
1
40
0.008000
41
0.008000
0
VERTEX
8
0
10
0.043000
20
-0.183000
0
VERTEX
8
0
10
0.043000
20
-0.233000
0
SEQEND
8
0
0
POLYLINE
8
0
66
1
40
0.008000
41
0.008000
0
VERTEX
8
0
10
0.018000
20
-0.208000
0
VERTEX
8
0
10
0.068000
20
-0.208000
0
SEQEND
8
0
0
POLYLINE
8
0
66
1
40
0.008000
41
0.008000
0
VERTEX
8
0
10
0.025000
20
-0.191000
0
VERTEX
8
0
10
0.060000
20
-0.226000
0
SEQEND
8
0
0
POLYLINE
8
0
66
1
40
0.008000
41
0.008000
0
VERTEX
8
0
10
0.025000
20
-0.226000
0
VERTEX
8
0
10
0.060000
20
-0.191000
0
SEQEND
8
0
0
POLYLINE
8
0
66
1
40
0.008000
41
0.008000
0
VERTEX
8
0
10
0.174000
20
0.065000
0
VERTEX
8
0
10
0.174000
20
0.015000
0
SEQEND
8
0
0
POLYLINE
8
0
66
1
40
0.008000
41
0.008000
0
VERTEX
8
0
10
0.149000
20
0.040000
0
VERTEX
8
0
10
0.199000
20
0.040000
0
SEQEND
8
0
0
POLYLINE
8
0
66
1
40
0.008000
41
0.008000
0
VERTEX
8
0
10
0.156000
20
0.057000
0
VERTEX
8
0
10
0.191000
20
0.022000
0
SEQEND
8
0
0
POLYLINE
8
0
66
1
40
0.008000
41
0.008000
0
VERTEX
8
0
10
0.156000
20
0.022000
0
VERTEX
8
0
10
0.191000
20
0.057000
0
SEQEND
8
0
0
POLYLINE
8
0
66
1
40
0.008000
41
0.008000
0
VERTEX
8
0
10
-0.153000
20
-0.186000
0
VERTEX
8
0
10
-0.153000
20
-0.236000
0
SEQEND
8
0
0
POLYLINE
8
0
66
1
40
0.008000
41
0.008000
0
VERTEX
8
0
10
-0.178000
20
-0.211000
0
VERTEX
8
0
10
-0.128000
20
-0.211000
0
SEQEND
8
0
0
POLYLINE
8
0
66
1
40
0.008000
41
0.008000
0
VERTEX
8
0
10
-0.171000
20
-0.194000
0
VERTEX
8
0
10
-0.136000
20
-0.229000
0
SEQEND
8
0
0
POLYLINE
8
0
66
1
40
0.008000
41
0.008000
0
VERTEX
8
0
10
-0.171000
20
-0.229000
0
VERTEX
8
0
10
-0.136000
20
-0.194000
0
SEQEND
8
0
0
POLYLINE
8
0
66
1
40
0.008000
41
0.008000
0
VERTEX
8
0
10
-0.025000
20
0.259000
0
VERTEX
8
0
10
-0.025000
20
0.209000
0
SEQEND
8
0
0
POLYLINE
8
0
66
1
40
0.008000
41
0.008000
0
VERTEX
8
0
10
-0.050000
20
0.234000
0
VERTEX
8
0
10
0.000000
20
0.234000
0
SEQEND
8
0
0
POLYLINE
8
0
66
1
40
0.008000
41
0.008000
0
VERTEX
8
0
10
-0.043000
20
0.251000
0
VERTEX
8
0
10
-0.008000
20
0.216000
0
SEQEND
8
0
0
POLYLINE
8
0
66
1
40
0.008000
41
0.008000
0
VERTEX
8
0
10
-0.043000
20
0.216000
0
VERTEX
8
0
10
-0.008000
20
0.251000
0
SEQEND
8
0
0
CIRCLE
8
12632256
10
-0.198000
20
-0.317000
40
0.025000
0
POLYLINE
8
0
66
1
40
0.008000
41
0.008000
0
VERTEX
8
0
10
-0.216000
20
-0.300000
0
VERTEX
8
0
10
-0.181000
20
-0.335000
0
SEQEND
8
0
0
POLYLINE
8
0
66
1
40
0.008000
41
0.008000
0
VERTEX
8
0
10
-0.216000
20
-0.335000
0
VERTEX
8
0
10
-0.181000
20
-0.300000
0
SEQEND
8
0
0
CIRCLE
8
12632256
10
-0.051000
20
-0.347000
40
0.025000
0
POLYLINE
8
0
66
1
40
0.008000
41
0.008000
0
VERTEX
8
0
10
-0.069000
20
-0.330000
0
VERTEX
8
0
10
-0.033000
20
-0.365000
0
SEQEND
8
0
0
POLYLINE
8
0
66
1
40
0.008000
41
0.008000
0
VERTEX
8
0
10
-0.069000
20
-0.365000
0
VERTEX
8
0
10
-0.033000
20
-0.330000
0
SEQEND
8
0
0
CIRCLE
8
12632256
10
0.092000
20
-0.313000
40
0.025000
0
POLYLINE
8
0
66
1
40
0.008000
41
0.008000
0
VERTEX
8
0
10
0.074000
20
-0.296000
0
VERTEX
8
0
10
0.110000
20
-0.331000
0
SEQEND
8
0
0
POLYLINE
8
0
66
1
40
0.008000
41
0.008000
0
VERTEX
8
0
10
0.074000
20
-0.331000
0
VERTEX
8
0
10
0.110000
20
-0.296000
0
SEQEND
8
0
0
CIRCLE
8
12632256
10
0.208000
20
-0.220000
40
0.025000
0
POLYLINE
8
0
66
1
40
0.008000
41
0.008000
0
VERTEX
8
0
10
0.190000
20
-0.202000
0
VERTEX
8
0
10
0.226000
20
-0.237000
0
SEQEND
8
0
0
POLYLINE
8
0
66
1
40
0.008000
41
0.008000
0
VERTEX
8
0
10
0.190000
20
-0.237000
0
VERTEX
8
0
10
0.226000
20
-0.202000
0
SEQEND
8
0
0
CIRCLE
8
12632256
10
0.279000
20
-0.090000
40
0.025000
0
POLYLINE
8
0
66
1
40
0.008000
41
0.008000
0
VERTEX
8
0
10
0.261000
20
-0.073000
0
VERTEX
8
0
10
0.297000
20
-0.108000
0
SEQEND
8
0
0
POLYLINE
8
0
66
1
40
0.008000
41
0.008000
0
VERTEX
8
0
10
0.261000
20
-0.108000
0
VERTEX
8
0
10
0.297000
20
-0.073000
0
SEQEND
8
0
0
CIRCLE
8
12632256
10
0.288000
20
0.056000
40
0.025000
0
POLYLINE
8
0
66
1
40
0.008000
41
0.008000
0
VERTEX
8
0
10
0.270000
20
0.073000
0
VERTEX
8
0
10
0.305000
20
0.038000
0
SEQEND
8
0
0
POLYLINE
8
0
66
1
40
0.008000
41
0.008000
0
VERTEX
8
0
10
0.270000
20
0.038000
0
VERTEX
8
0
10
0.305000
20
0.073000
0
SEQEND
8
0
0
CIRCLE
8
12632256
10
0.235000
20
0.193000
40
0.025000
0
POLYLINE
8
0
66
1
40
0.008000
41
0.008000
0
VERTEX
8
0
10
0.217000
20
0.211000
0
VERTEX
8
0
10
0.252000
20
0.175000
0
SEQEND
8
0
0
POLYLINE
8
0
66
1
40
0.008000
41
0.008000
0
VERTEX
8
0
10
0.217000
20
0.175000
0
VERTEX
8
0
10
0.252000
20
0.211000
0
SEQEND
8
0
0
CIRCLE
8
12632256
10
0.128000
20
0.298000
40
0.025000
0
POLYLINE
8
0
66
1
40
0.008000
41
0.008000
0
VERTEX
8
0
10
0.110000
20
0.316000
0
VERTEX
8
0
10
0.145000
20
0.281000
0
SEQEND
8
0
0
POLYLINE
8
0
66
1
40
0.008000
41
0.008000
0
VERTEX
8
0
10
0.110000
20
0.281000
0
VERTEX
8
0
10
0.145000
20
0.316000
0
SEQEND
8
0
0
CIRCLE
8
12632256
10
-0.010000
20
0.349000
40
0.025000
0
POLYLINE
8
0
66
1
40
0.008000
41
0.008000
0
VERTEX
8
0
10
-0.027000
20
0.366000
0
VERTEX
8
0
10
0.007000
20
0.331000
0
SEQEND
8
0
0
POLYLINE
8
0
66
1
40
0.008000
41
0.008000
0
VERTEX
8
0
10
-0.027000
20
0.331000
0
VERTEX
8
0
10
0.007000
20
0.366000
0
SEQEND
8
0
0
CIRCLE
8
12632256
10
-0.157000
20
0.338000
40
0.025000
0
POLYLINE
8
0
66
1
40
0.008000
41
0.008000
0
VERTEX
8
0
10
-0.174000
20
0.355000
0
VERTEX
8
0
10
-0.139000
20
0.320000
0
SEQEND
8
0
0
POLYLINE
8
0
66
1
40
0.008000
41
0.008000
0
VERTEX
8
0
10
-0.174000
20
0.320000
0
VERTEX
8
0
10
-0.139000
20
0.355000
0
SEQEND
8
0
0
CIRCLE
8
12632256
10
-0.285000
20
0.264000
40
0.025000
0
POLYLINE
8
0
66
1
40
0.008000
41
0.008000
0
VERTEX
8
0
10
-0.302000
20
0.282000
0
VERTEX
8
0
10
-0.267000
20
0.247000
0
SEQEND
8
0
0
POLYLINE
8
0
66
1
40
0.008000
41
0.008000
0
VERTEX
8
0
10
-0.302000
20
0.247000
0
VERTEX
8
0
10
-0.267000
20
0.282000
0
SEQEND
8
0
0
CIRCLE
8
12632256
10
-0.376000
20
0.147000
40
0.025000
0
POLYLINE
8
0
66
1
40
0.008000
41
0.008000
0
VERTEX
8
0
10
-0.394000
20
0.164000
0
VERTEX
8
0
10
-0.359000
20
0.129000
0
SEQEND
8
0
0
POLYLINE
8
0
66
1
40
0.008000
41
0.008000
0
VERTEX
8
0
10
-0.394000
20
0.129000
0
VERTEX
8
0
10
-0.359000
20
0.164000
0
SEQEND
8
0
0
CIRCLE
8
12632256
10
-0.408000
20
0.002000
40
0.025000
0
POLYLINE
8
0
66
1
40
0.008000
41
0.008000
0
VERTEX
8
0
10
-0.425000
20
0.020000
0
VERTEX
8
0
10
-0.390000
20
-0.014000
0
SEQEND
8
0
0
POLYLINE
8
0
66
1
40
0.008000
41
0.008000
0
VERTEX
8
0
10
-0.425000
20
-0.014000
0
VERTEX
8
0
10
-0.390000
20
0.020000
0
SEQEND
8
0
0
CIRCLE
8
12632256
10
-0.375000
20
-0.144000
40
0.025000
0
POLYLINE
8
0
66
1
40
0.008000
41
0.008000
0
VERTEX
8
0
10
-0.393000
20
-0.126000
0
VERTEX
8
0
10
-0.357000
20
-0.161000
0
SEQEND
8
0
0
POLYLINE
8
0
66
1
40
0.008000
41
0.008000
0
VERTEX
8
0
10
-0.393000
20
-0.161000
0
VERTEX
8
0
10
-0.357000
20
-0.126000
0
SEQEND
8
0
0
POLYLINE
8
0
66
1
40
0.008000
41
0.008000
0
VERTEX
8
0
10
-0.075000
20
0.019000
0
VERTEX
8
0
10
-0.040000
20
-0.015000
0
SEQEND
8
0
0
POLYLINE
8
0
66
1
40
0.008000
41
0.008000
0
VERTEX
8
0
10
-0.075000
20
-0.015000
0
VERTEX
8
0
10
-0.040000
20
0.019000
0
SEQEND
8
0
0
CIRCLE
8
12632256
10
-0.307000
20
-0.472000
40
0.025000
0
POLYLINE
8
0
66
1
40
0.008000
41
0.008000
0
VERTEX
8
0
10
-0.307000
20
-0.447000
0
VERTEX
8
0
10
-0.307000
20
-0.497000
0
SEQEND
8
0
0
POLYLINE
8
0
66
1
40
0.008000
41
0.008000
0
VERTEX
8
0
10
-0.332000
20
-0.472000
0
VERTEX
8
0
10
-0.282000
20
-0.472000
0
SEQEND
8
0
0
CIRCLE
8
12632256
10
0.192000
20
-0.472000
40
0.025000
0
POLYLINE
8
0
66
1
40
0.008000
41
0.008000
0
VERTEX
8
0
10
0.192000
20
-0.447000
0
VERTEX
8
0
10
0.192000
20
-0.497000
0
SEQEND
8
0
0
POLYLINE
8
0
66
1
40
0.008000
41
0.008000
0
VERTEX
8
0
10
0.167000
20
-0.472000
0
VERTEX
8
0
10
0.217000
20
-0.472000
0
SEQEND
8
0
0
CIRCLE
8
12632256
10
0.242000
20
-0.372000
40
0.025000
0
POLYLINE
8
0
66
1
40
0.008000
41
0.008000
0
VERTEX
8
0
10
0.242000
20
-0.347000
0
VERTEX
8
0
10
0.242000
20
-0.397000
0
SEQEND
8
0
0
POLYLINE
8
0
66
1
40
0.008000
41
0.008000
0
VERTEX
8
0
10
0.217000
20
-0.372000
0
VERTEX
8
0
10
0.267000
20
-0.372000
0
SEQEND
8
0
0
POLYLINE
8
0
66
1
40
0.008000
41
0.008000
0
VERTEX
8
0
10
-0.257000
20
-0.172000
0
VERTEX
8
0
10
-0.257000
20
-0.222000
0
SEQEND
8
0
0
POLYLINE
8
0
66
1
40
0.008000
41
0.008000
0
VERTEX
8
0
10
-0.282000
20
-0.197000
0
VERTEX
8
0
10
-0.232000
20
-0.197000
0
SEQEND
8
0
0
POLYLINE
8
0
66
1
40
0.008000
41
0.008000
0
VERTEX
8
0
10
-0.275000
20
-0.180000
0
VERTEX
8
0
10
-0.240000
20
-0.215000
0
SEQEND
8
0
0
POLYLINE
8
0
66
1
40
0.008000
41
0.008000
0
VERTEX
8
0
10
-0.275000
20
-0.215000
0
VERTEX
8
0
10
-0.240000
20
-0.180000
0
SEQEND
8
0
0
POLYLINE
8
0
66
1
40
0.010000
41
0.010000
0
VERTEX
8
0
10
-0.167000
20
0.832000
0
VERTEX
8
0
10
-0.517000
20
0.387000
0
SEQEND
8
0
0
POLYLINE
8
0
66
1
40
0.010000
41
0.010000
0
VERTEX
8
0
10
-0.517000
20
-0.382000
0
VERTEX
8
0
10
-0.167000
20
-0.827000
0
SEQEND
8
0
0
POLYLINE
8
0
66
1
40
0.010000
41
0.010000
0
VERTEX
8
0
10
0.052000
20
-0.827000
0
VERTEX
8
0
10
0.402000
20
-0.382000
0
SEQEND
8
0
0
POLYLINE
8
0
66
1
40
0.010000
41
0.010000
0
VERTEX
8
0
10
0.402000
20
0.387000
0
VERTEX
8
0
10
0.052000
20
0.832000
0
SEQEND
8
0
0
POLYLINE
8
0
66
1
40
0.010000
41
0.010000
0
VERTEX
8
0
10
-0.657000
20
0.002000
0
VERTEX
8
0
10
-0.654000
20
-0.055000
0
VERTEX
8
0
10
-0.647000
20
-0.109000
0
VERTEX
8
0
10
-0.635000
20
-0.160000
0
VERTEX
8
0
10
-0.619000
20
-0.209000
0
VERTEX
8
0
10
-0.599000
20
-0.255000
0
VERTEX
8
0
10
-0.576000
20
-0.299000
0
VERTEX
8
0
10
-0.548000
20
-0.341000
0
VERTEX
8
0
10
-0.517000
20
-0.382000
0
SEQEND
8
0
0
POLYLINE
8
0
66
1
40
0.010000
41
0.010000
0
VERTEX
8
0
10
-0.657000
20
0.002000
0
VERTEX
8
0
10
-0.654000
20
0.059000
0
VERTEX
8
0
10
-0.647000
20
0.113000
0
VERTEX
8
0
10
-0.635000
20
0.165000
0
VERTEX
8
0
10
-0.619000
20
0.214000
0
VERTEX
8
0
10
-0.599000
20
0.260000
0
VERTEX
8
0
10
-0.576000
20
0.304000
0
VERTEX
8
0
10
-0.548000
20
0.346000
0
VERTEX
8
0
10
-0.517000
20
0.387000
0
SEQEND
8
0
0
POLYLINE
8
0
66
1
40
0.010000
41
0.010000
0
VERTEX
8
0
10
0.542000
20
0.002000
0
VERTEX
8
0
10
0.539000
20
-0.055000
0
VERTEX
8
0
10
0.532000
20
-0.109000
0
VERTEX
8
0
10
0.520000
20
-0.160000
0
VERTEX
8
0
10
0.504000
20
-0.209000
0
VERTEX
8
0
10
0.484000
20
-0.255000
0
VERTEX
8
0
10
0.460000
20
-0.299000
0
VERTEX
8
0
10
0.433000
20
-0.341000
0
VERTEX
8
0
10
0.402000
20
-0.382000
0
SEQEND
8
0
0
POLYLINE
8
0
66
1
40
0.010000
41
0.010000
0
VERTEX
8
0
10
0.542000
20
0.002000
0
VERTEX
8
0
10
0.539000
20
0.059000
0
VERTEX
8
0
10
0.532000
20
0.113000
0
VERTEX
8
0
10
0.520000
20
0.165000
0
VERTEX
8
0
10
0.504000
20
0.214000
0
VERTEX
8
0
10
0.484000
20
0.260000
0
VERTEX
8
0
10
0.460000
20
0.304000
0
VERTEX
8
0
10
0.433000
20
0.346000
0
VERTEX
8
0
10
0.402000
20
0.387000
0
SEQEND
8
0
0
POLYLINE
8
0
66
1
40
0.010000
41
0.010000
0
VERTEX
8
0
10
-0.057000
20
0.877000
0
VERTEX
8
0
10
-0.078000
20
0.876000
0
VERTEX
8
0
10
-0.096000
20
0.874000
0
VERTEX
8
0
10
-0.111000
20
0.871000
0
VERTEX
8
0
10
-0.124000
20
0.866000
0
VERTEX
8
0
10
-0.135000
20
0.860000
0
VERTEX
8
0
10
-0.146000
20
0.852000
0
VERTEX
8
0
10
-0.167000
20
0.832000
0
SEQEND
8
0
0
POLYLINE
8
0
66
1
40
0.010000
41
0.010000
0
VERTEX
8
0
10
-0.057000
20
0.877000
0
VERTEX
8
0
10
-0.036000
20
0.876000
0
VERTEX
8
0
10
-0.019000
20
0.874000
0
VERTEX
8
0
10
-0.004000
20
0.871000
0
VERTEX
8
0
10
0.009000
20
0.866000
0
VERTEX
8
0
10
0.020000
20
0.860000
0
VERTEX
8
0
10
0.031000
20
0.852000
0
VERTEX
8
0
10
0.052000
20
0.832000
0
SEQEND
8
0
0
POLYLINE
8
0
66
1
40
0.010000
41
0.010000
0
VERTEX
8
0
10
-0.057000
20
-0.872000
0
VERTEX
8
0
10
-0.078000
20
-0.871000
0
VERTEX
8
0
10
-0.096000
20
-0.869000
0
VERTEX
8
0
10
-0.111000
20
-0.866000
0
VERTEX
8
0
10
-0.124000
20
-0.862000
0
VERTEX
8
0
10
-0.135000
20
-0.855000
0
VERTEX
8
0
10
-0.146000
20
-0.848000
0
VERTEX
8
0
10
-0.167000
20
-0.827000
0
SEQEND
8
0
0
POLYLINE
8
0
66
1
40
0.010000
41
0.010000
0
VERTEX
8
0
10
-0.057000
20
-0.872000
0
VERTEX
8
0
10
-0.036000
20
-0.871000
0
VERTEX
8
0
10
-0.019000
20
-0.869000
0
VERTEX
8
0
10
-0.004000
20
-0.866000
0
VERTEX
8
0
10
0.009000
20
-0.862000
0
VERTEX
8
0
10
0.020000
20
-0.855000
0
VERTEX
8
0
10
0.031000
20
-0.848000
0
VERTEX
8
0
10
0.052000
20
-0.827000
0
SEQEND
8
0
0
POLYLINE
8
0
66
1
40
0.008000
41
0.008000
0
VERTEX
8
0
10
-1.158000
20
-1.052000
0
VERTEX
8
0
10
-1.158000
20
-1.102000
0
SEQEND
8
0
0
POLYLINE
8
0
66
1
40
0.008000
41
0.008000
0
VERTEX
8
0
10
-1.183000
20
-1.077000
0
VERTEX
8
0
10
-1.133000
20
-1.077000
0
SEQEND
8
0
0
TEXT
8
0
10
-1.108000
20
-1.097000
40
0.040000
41
1.000000
1
0.128in (2)
0
POLYLINE
8
0
66
1
40
0.008000
41
0.008000
0
VERTEX
8
0
10
-0.576000
20
-1.060000
0
VERTEX
8
0
10
-0.541000
20
-1.095000
0
SEQEND
8
0
0
POLYLINE
8
0
66
1
40
0.008000
41
0.008000
0
VERTEX
8
0
10
-0.576000
20
-1.095000
0
VERTEX
8
0
10
-0.541000
20
-1.060000
0
SEQEND
8
0
0
TEXT
8
0
10
-0.508000
20
-1.097000
40
0.040000
41
1.000000
1
0.201in (1)
0
POLYLINE
8
0
66
1
40
0.008000
41
0.008000
0
VERTEX
8
0
10
0.041000
20
-1.052000
0
VERTEX
8
0
10
0.041000
20
-1.102000
0
SEQEND
8
0
0
POLYLINE
8
0
66
1
40
0.008000
41
0.008000
0
VERTEX
8
0
10
0.016000
20
-1.077000
0
VERTEX
8
0
10
0.066000
20
-1.077000
0
SEQEND
8
0
0
POLYLINE
8
0
66
1
40
0.008000
41
0.008000
0
VERTEX
8
0
10
0.023000
20
-1.060000
0
VERTEX
8
0
10
0.058000
20
-1.095000
0
SEQEND
8
0
0
POLYLINE
8
0
66
1
40
0.008000
41
0.008000
0
VERTEX
8
0
10
0.023000
20
-1.095000
0
VERTEX
8
0
10
0.058000
20
-1.060000
0
SEQEND
8
0
0
TEXT
8
0
10
0.091000
20
-1.097000
40
0.040000
41
1.000000
1
35th (15)
0
CIRCLE
8
12632256
10
0.641000
20
-1.077000
40
0.025000
0
POLYLINE
8
0
66
1
40
0.008000
41
0.008000
0
VERTEX
8
0
10
0.641000
20
-1.052000
0
VERTEX
8
0
10
0.641000
20
-1.102000
0
SEQEND
8
0
0
POLYLINE
8
0
66
1
40
0.008000
41
0.008000
0
VERTEX
8
0
10
0.616000
20
-1.077000
0
VERTEX
8
0
10
0.666000
20
-1.077000
0
SEQEND
8
0
0
TEXT
8
0
10
0.691000
20
-1.097000
40
0.040000
41
1.000000
1
42th (3)
0
CIRCLE
8
12632256
10
1.241000
20
-1.077000
40
0.025000
0
POLYLINE
8
0
66
1
40
0.008000
41
0.008000
0
VERTEX
8
0
10
1.223000
20
-1.060000
0
VERTEX
8
0
10
1.258000
20
-1.095000
0
SEQEND
8
0
0
POLYLINE
8
0
66
1
40
0.008000
41
0.008000
0
VERTEX
8
0
10
1.223000
20
-1.095000
0
VERTEX
8
0
10
1.258000
20
-1.060000
0
SEQEND
8
0
0
TEXT
8
0
10
1.291000
20
-1.097000
40
0.040000
41
1.000000
1
75th (14)
0
ENDSEC
0
EOF

